  0
SECTION
  2
HEADER
  9
$ACADVER
  1
AC1009
  9
$INSBASE
 10
0.0
 20
0.0
 30
0.0
  9
$EXTMIN
 10
0.0
 20
0.0
 30
0.0
  9
$EXTMAX
 10
0.0
 20
0.0
 30
0.0
  0
ENDSEC
  0
SECTION
  2
TABLES
  0
TABLE
  2
VPORT
 70
0
  0
ENDTAB
  0
TABLE
  2
LTYPE
 70
1
  0
LTYPE
  2
CONTINUOUS
 70
0
  3
Solid line
 72
65
 73
0
 40
0.0
  0
ENDTAB
  0
TABLE
  2
LAYER
 70
1
  0
LAYER
  2
0
 70
64
 62
7
  6
continuous
  0
ENDTAB
  0
TABLE
  2
STYLE
 70
1
  0
STYLE
  2
STANDARD
 70
0
 40
0
 41
1.0
 50
0.0
 71
0
 42
1
 3
ARIAL.TTF
 4

  0
ENDTAB
  0
TABLE
  2
VIEW
 70
0
  0
ENDTAB
  0
ENDSEC
  0
SECTION
  2
BLOCKS
  0
BLOCK
  8
0
  2
HOLE
 70
0
 10
0.0
 20
0.0
 30
0.0
  3
HOLE
  0
LINE
  8
0
 62
0
 10
114.809878807
 20
163.764134438
 30
0.0
 11
100.1152475
 21
143.538709579
 31
0.0
  0
ARC
  8
0
 62
0
 10
0.0
 20
0.0
 30
0.0
 40
200.0
 50
72.0
 51
89.0330878265
  0
ARC
  8
0
 62
0
 10
0.0
 20
0.0
 30
0.0
 40
200.0
 50
54.9669121735
 51
72.0
  0
LINE
  8
0
 62
0
 10
100.1152475
 20
143.538709579
 30
0.0
 11
105.576112212
 21
139.571159126
 31
0.0
  0
LINE
  8
0
 62
0
 10
3.375
 20
199.97152141
 30
0.0
 11
3.375
 21
174.97152141
 31
0.0
  0
LINE
  8
0
 62
0
 10
-3.375
 20
174.97152141
 30
0.0
 11
3.375
 21
174.97152141
 31
0.0
  0
LINE
  8
0
 62
0
 10
-3.375
 20
199.97152141
 30
0.0
 11
-3.375
 21
174.97152141
 31
0.0
  0
LINE
  8
0
 62
0
 10
120.270743519
 20
159.796583985
 30
0.0
 11
105.576112212
 21
139.571159126
 31
0.0
  0
ARC
  8
0
 62
0
 10
0.0
 20
0.0
 30
0.0
 40
200.0
 50
90.9669121735
 51
108.0
  0
ARC
  8
0
 62
0
 10
0.0
 20
0.0
 30
0.0
 40
200.0
 50
36.0
 51
53.0330878265
  0
ARC
  8
0
 62
0
 10
0.0
 20
0.0
 30
0.0
 40
200.0
 50
108.0
 51
125.033087826
  0
ARC
  8
0
 62
0
 10
0.0
 20
0.0
 30
0.0
 40
200.0
 50
18.9669121735
 51
36.0
  0
LINE
  8
0
 62
0
 10
-114.809878807
 20
163.764134438
 30
0.0
 11
-100.1152475
 21
143.538709579
 31
0.0
  0
LINE
  8
0
 62
0
 10
189.141286154
 20
65.0044142492
 30
0.0
 11
165.364873247
 21
57.2789893898
 31
0.0
  0
LINE
  8
0
 62
0
 10
-105.576112212
 20
139.571159126
 30
0.0
 11
-100.1152475
 21
143.538709579
 31
0.0
  0
LINE
  8
0
 62
0
 10
165.364873247
 20
57.2789893898
 30
0.0
 11
167.450737959
 21
50.8593579048
 31
0.0
  0
LINE
  8
0
 62
0
 10
-120.270743519
 20
159.796583985
 30
0.0
 11
-105.576112212
 21
139.571159126
 31
0.0
  0
LINE
  8
0
 62
0
 10
191.227150866
 20
58.5847827642
 30
0.0
 11
167.450737959
 21
50.8593579048
 31
0.0
  0
ARC
  8
0
 62
0
 10
0.0
 20
0.0
 30
0.0
 40
200.0
 50
126.966912174
 51
144.0
  0
ARC
  8
0
 62
0
 10
0.0
 20
0.0
 30
0.0
 40
200.0
 50
-0.0
 51
17.0330878265
  0
ARC
  8
0
 62
0
 10
0.0
 20
0.0
 30
0.0
 40
200.0
 50
144.0
 51
161.033087826
  0
ARC
  8
0
 62
0
 10
0.0
 20
0.0
 30
0.0
 40
200.0
 50
-17.0330878265
 51
-0.0
  0
LINE
  8
0
 62
0
 10
-189.141286154
 20
65.0044142492
 30
0.0
 11
-165.364873247
 21
57.2789893898
 31
0.0
  0
LINE
  8
0
 62
0
 10
191.227150866
 20
-58.5847827642
 30
0.0
 11
167.450737959
 21
-50.8593579048
 31
0.0
  0
LINE
  8
0
 62
0
 10
-167.450737959
 20
50.8593579048
 30
0.0
 11
-165.364873247
 21
57.2789893898
 31
0.0
  0
LINE
  8
0
 62
0
 10
167.450737959
 20
-50.8593579048
 30
0.0
 11
165.364873247
 21
-57.2789893898
 31
0.0
  0
LINE
  8
0
 62
0
 10
-191.227150866
 20
58.5847827642
 30
0.0
 11
-167.450737959
 21
50.8593579048
 31
0.0
  0
LINE
  8
0
 62
0
 10
189.141286154
 20
-65.0044142492
 30
0.0
 11
165.364873247
 21
-57.2789893898
 31
0.0
  0
ARC
  8
0
 62
0
 10
0.0
 20
0.0
 30
0.0
 40
200.0
 50
162.966912174
 51
180.0
  0
ARC
  8
0
 62
0
 10
0.0
 20
0.0
 30
0.0
 40
200.0
 50
-36.0
 51
-18.9669121735
  0
ARC
  8
0
 62
0
 10
0.0
 20
0.0
 30
0.0
 40
200.0
 50
180.0
 51
-162.966912174
  0
ARC
  8
0
 62
0
 10
0.0
 20
0.0
 30
0.0
 40
200.0
 50
-53.0330878265
 51
-36.0
  0
LINE
  8
0
 62
0
 10
-191.227150866
 20
-58.5847827642
 30
0.0
 11
-167.450737959
 21
-50.8593579048
 31
0.0
  0
LINE
  8
0
 62
0
 10
120.270743519
 20
-159.796583985
 30
0.0
 11
105.576112212
 21
-139.571159126
 31
0.0
  0
LINE
  8
0
 62
0
 10
-165.364873247
 20
-57.2789893898
 30
0.0
 11
-167.450737959
 21
-50.8593579048
 31
0.0
  0
LINE
  8
0
 62
0
 10
105.576112212
 20
-139.571159126
 30
0.0
 11
100.1152475
 21
-143.538709579
 31
0.0
  0
LINE
  8
0
 62
0
 10
-189.141286154
 20
-65.0044142492
 30
0.0
 11
-165.364873247
 21
-57.2789893898
 31
0.0
  0
LINE
  8
0
 62
0
 10
114.809878807
 20
-163.764134438
 30
0.0
 11
100.1152475
 21
-143.538709579
 31
0.0
  0
ARC
  8
0
 62
0
 10
0.0
 20
0.0
 30
0.0
 40
200.0
 50
-161.033087826
 51
-144.0
  0
ARC
  8
0
 62
0
 10
0.0
 20
0.0
 30
0.0
 40
200.0
 50
-72.0
 51
-54.9669121735
  0
ARC
  8
0
 62
0
 10
0.0
 20
0.0
 30
0.0
 40
200.0
 50
-144.0
 51
-126.966912174
  0
ARC
  8
0
 62
0
 10
0.0
 20
0.0
 30
0.0
 40
200.0
 50
-89.0330878265
 51
-72.0
  0
LINE
  8
0
 62
0
 10
-120.270743519
 20
-159.796583985
 30
0.0
 11
-105.576112212
 21
-139.571159126
 31
0.0
  0
LINE
  8
0
 62
0
 10
3.375
 20
-199.97152141
 30
0.0
 11
3.375
 21
-174.97152141
 31
0.0
  0
LINE
  8
0
 62
0
 10
-100.1152475
 20
-143.538709579
 30
0.0
 11
-105.576112212
 21
-139.571159126
 31
0.0
  0
LINE
  8
0
 62
0
 10
3.375
 20
-174.97152141
 30
0.0
 11
-3.375
 21
-174.97152141
 31
0.0
  0
LINE
  8
0
 62
0
 10
-114.809878807
 20
-163.764134438
 30
0.0
 11
-100.1152475
 21
-143.538709579
 31
0.0
  0
LINE
  8
0
 62
0
 10
-3.375
 20
-199.97152141
 30
0.0
 11
-3.375
 21
-174.97152141
 31
0.0
  0
ARC
  8
0
 62
0
 10
0.0
 20
0.0
 30
0.0
 40
200.0
 50
-125.033087826
 51
-108.0
  0
ARC
  8
0
 62
0
 10
0.0
 20
0.0
 30
0.0
 40
200.0
 50
-108.0
 51
-90.9669121735
  0
CIRCLE
  8
0
 62
0
 10
-5.27825671705e-33
 20
-2.67629918048e-33
 30
0.0
 40
3.0
  0
ENDBLK
  0
ENDSEC
  0
SECTION
  2
ENTITIES
  0
INSERT
  2
HOLE
  8
0
 62
0
 10
0.0
 20
0.0
 30
0.0
  0
ENDSEC
  0
EOF
